0
SECTION
2
HEADER
9
$INSUNITS
70
4
9
$ACADVER
1
AC1014
9
$HANDSEED
5
FFFF
0
ENDSEC
0
SECTION
2
TABLES
0
TABLE
2
VPORT
5
8
100
AcDbSymbolTable
0
ENDTAB
0
TABLE
2
LTYPE
5
5
100
AcDbSymbolTable
0
LTYPE
5
14
100
AcDbSymbolTableRecord
100
AcDbLinetypeTableRecord
2
BYBLOCK
70
0
0
LTYPE
5
15
100
AcDbSymbolTableRecord
100
AcDbLinetypeTableRecord
2
BYLAYER
70
0
0
ENDTAB
0
TABLE
2
LAYER
5
2
100
AcDbSymbolTable
70
2
0
LAYER
5
50
100
AcDbSymbolTableRecord
100
AcDbLayerTableRecord
2
0
70
0
6
CONTINUOUS
0
ENDTAB
0
TABLE
2
STYLE
5
3
100
AcDbSymbolTable
70
1
0
STYLE
5
11
100
AcDbSymbolTableRecord
100
AcDbTextStyleTableRecord
2
STANDARD
70
0
0
ENDTAB
0
TABLE
2
VIEW
5
6
100
AcDbSymbolTable
70
0
0
ENDTAB
0
TABLE
2
UCS
5
7
100
AcDbSymbolTable
70
0
0
ENDTAB
0
TABLE
2
APPID
5
9
100
AcDbSymbolTable
70
2
0
APPID
5
12
100
AcDbSymbolTableRecord
100
AcDbRegAppTableRecord
2
ACAD
70
0
0
ENDTAB
0
TABLE
2
DIMSTYLE
5
A
100
AcDbSymbolTable
70
1
0
ENDTAB
0
TABLE
2
BLOCK_RECORD
5
1
100
AcDbSymbolTable
70
1
0
BLOCK_RECORD
5
1F
100
AcDbSymbolTableRecord
100
AcDbBlockTableRecord
2
*MODEL_SPACE
0
BLOCK_RECORD
5
1B
100
AcDbSymbolTableRecord
100
AcDbBlockTableRecord
2
*PAPER_SPACE
0
ENDTAB
0
ENDSEC
0
SECTION
2
BLOCKS
0
BLOCK
5
20
100
AcDbEntity
100
AcDbBlockBegin
2
*MODEL_SPACE
0
ENDBLK
5
21
100
AcDbEntity
100
AcDbBlockEnd
0
BLOCK
5
1C
100
AcDbEntity
100
AcDbBlockBegin
2
*PAPER_SPACE
0
ENDBLK
5
1D
100
AcDbEntity
100
AcDbBlockEnd
0
ENDSEC
0
SECTION
2
ENTITIES
0
LWPOLYLINE
5
100
100
AcDbEntity
8
0
100
AcDbPolyline
90
10
70
1
43
0.0
10
24.5
20
54.949747468305844
42
0.9999999925494194
10
29.449747468305834
20
50.000000000000014
10
40
20
50
10
40
20
-50
10
-40
20
-50
10
-40
20
50
10
-29.44974746830583
20
50
42
0.99999999999999989
10
-24.5
20
54.949747468305844
10
-24.5
20
68
10
24.5
20
68
0
LWPOLYLINE
5
101
100
AcDbEntity
8
0
100
AcDbPolyline
90
8
70
1
43
0.0
10
4.0502525316941647
20
-24.999999999999996
42
0.9999999925494194
10
9
20
-20.050252531694163
10
9
20
20.050252531694163
42
0.99999999999999989
10
4.0502525316941664
20
24.999999999999996
10
-4.0502525316941647
20
24.999999999999996
42
0.99999999999999989
10
-9
20
20.050252531694159
10
-8.9999999999999964
20
-20.050252531694159
42
0.99999999999999989
10
-4.0502525316941647
20
-24.999999999999996
0
LWPOLYLINE
5
102
100
AcDbEntity
8
0
100
AcDbPolyline
90
8
70
1
43
0.0
10
129.15025253169418
20
-25.000000000000007
42
0.99999999999999989
10
134.10000000000002
20
-20.050252531694181
10
134.09999999999999
20
20.050252531694156
42
0.99999999999999989
10
129.15025253169418
20
24.999999999999996
10
120.94974746830582
20
25
42
1.0000000074505806
10
116
20
20.050252531694163
10
116
20
-20.050252531694156
42
1.0000000074505806
10
120.94974746830582
20
-24.999999999999996
0
LWPOLYLINE
5
103
100
AcDbEntity
8
0
100
AcDbPolyline
90
10
70
1
43
0.0
10
149.55000000000001
20
54.949747468305802
42
0.99999999999999989
10
154.49974746830583
20
49.999999999999964
10
165.04999999999998
20
49.999999999999964
10
165.04999999999998
20
-50.000000000000036
10
85.050000000000011
20
-50.000000000000036
10
85.050000000000011
20
49.999999999999964
10
95.600252531694167
20
49.999999999999964
42
1.0000000074505806
10
100.55
20
54.949747468305802
10
100.55
20
67.999999999999972
10
149.55000000000001
20
67.999999999999972
0
LWPOLYLINE
5
104
100
AcDbEntity
8
0
100
AcDbPolyline
90
8
70
1
43
0.0
10
254.25025253169417
20
-25
42
0.99999999999999989
10
259.20000003687841
20
-20.050252568572656
10
259.20000000000005
20
20.050252531694181
42
0.99999999999999989
10
254.25025253169417
20
24.999999999999996
10
245.94974746830587
20
24.999999999999993
42
0.99999999999999989
10
241
20
20.050252531694174
10
241
20
-20.050252531694181
42
0.99999999999999989
10
245.94974746830587
20
-24.999999999999996
0
LWPOLYLINE
5
105
100
AcDbEntity
8
0
100
AcDbPolyline
90
10
70
1
43
0.0
10
274.60000000000008
20
54.949747468305794
42
0.99999999999999989
10
279.5497474683059
20
49.999999999999972
10
290.10000000000002
20
49.999999999999957
10
290.10000000000002
20
-50.000000000000043
10
210.10000000000005
20
-50.000000000000036
10
210.10000000000005
20
49.999999999999964
10
220.65025253169424
20
49.999999999999957
42
0.99999999999999989
10
225.60000000000005
20
54.949747468305787
10
225.60000000000005
20
67.999999999999957
10
274.60000000000008
20
67.999999999999957
0
LWPOLYLINE
5
106
100
AcDbEntity
8
0
100
AcDbPolyline
90
10
70
1
43
0.0
10
399.65000000000003
20
54.949747468305915
42
0.99999999999999989
10
404.59974746830568
20
50
10
415.15000000000009
20
50.000000000000057
10
415.15000000000009
20
-49.999999999999943
10
335.15000000000009
20
-49.999999999999943
10
335.15000000000009
20
50.000000000000057
10
345.70025253169428
20
50.000000000000036
42
0.99999999999999989
10
350.65000000000003
20
54.949747468305901
10
350.65000000000003
20
68.000000000000043
10
399.65000000000003
20
68.000000000000043
0
LWPOLYLINE
5
107
100
AcDbEntity
8
0
100
AcDbPolyline
90
8
70
1
43
0.0
10
379.3502525316942
20
-25.000000000000014
42
0.9999999925494194
10
384.30000000000001
20
-20.050252531694206
10
384.30000000000001
20
20.050252531694134
42
0.99999999999999989
10
379.3502525316942
20
24.999999999999996
10
370.94974746830582
20
25.000000000000018
42
0.99999999999999989
10
366
20
20.050252531694156
10
366
20
-20.050252531694127
42
0.99999999999999989
10
370.94974746830582
20
-24.999999999999993
0
LWPOLYLINE
5
108
100
AcDbEntity
8
0
100
AcDbPolyline
90
10
70
1
43
0.0
10
524.70000000000005
20
54.949747468306001
42
0.99999999999999989
10
529.64974746830558
20
50.000000000000107
10
540.20000000000005
20
50.000000000000142
10
540.20000000000005
20
-49.999999999999858
10
460.20000000000005
20
-49.999999999999858
10
460.20000000000005
20
50.000000000000142
10
470.75025253169423
20
50.000000000000135
42
0.99999999999999989
10
475.69999999999999
20
54.949747468306001
10
475.69999999999999
20
68.000000000000142
10
524.70000000000005
20
68.000000000000142
0
LWPOLYLINE
5
109
100
AcDbEntity
8
0
100
AcDbPolyline
90
8
70
1
43
0.0
10
504.45025253169422
20
-25.000000000000018
42
0.9999999925494194
10
509.40000000000009
20
-20.050252531694195
10
509.39999999999998
20
20.050252531694134
42
0.99999999999999989
10
504.45025253169422
20
24.999999999999996
10
495.94974746830582
20
25.000000000000007
42
0.99999999999999989
10
491
20
20.050252531694142
10
491
20
-20.050252531694134
42
0.99999999999999989
10
495.94974746830582
20
-24.999999999999996
0
LWPOLYLINE
5
110
100
AcDbEntity
8
0
100
AcDbPolyline
90
8
70
1
43
0.0
10
634.5
20
20.050252531694134
42
0.99999999999999989
10
629.55025253169435
20
25.000000000000043
10
620.94974746830576
20
25.000000000000018
42
0.99999999999999989
10
616
20
20.050252531694149
10
616
20
-20.050252531694134
42
0.99999999999999989
10
620.94974746830576
20
-24.999999999999996
10
629.55025253169424
20
-25.000000000000018
42
0.99999999999999989
10
634.5
20
-20.050252531694149
0
LWPOLYLINE
5
111
100
AcDbEntity
8
0
100
AcDbPolyline
90
10
70
1
43
0.0
10
649.74999999999977
20
54.949747468305894
42
0.99999999999999989
10
654.69974746830576
20
50.000000000000213
10
665.24999999999977
20
50.000000000000114
10
665.24999999999977
20
-49.999999999999886
10
585.24999999999977
20
-49.999999999999872
10
585.24999999999977
20
50.000000000000128
10
595.80025253169401
20
50.000000000000107
42
0.99999999999999989
10
600.74999999999977
20
54.949747468305972
10
600.74999999999977
20
68.000000000000114
10
649.74999999999977
20
68.000000000000114
0
LWPOLYLINE
5
112
100
AcDbEntity
8
0
100
AcDbPolyline
90
10
70
1
43
0.0
10
769.70000000000005
20
54.949747468305603
42
0.99999999999999989
10
774.64974746830626
20
49.999999999999936
10
785.19999999999993
20
49.999999999999844
10
785.19999999999993
20
-50.000000000000156
10
705.19999999999993
20
-50.000000000000185
10
705.19999999999993
20
49.999999999999815
10
715.75025253169406
20
49.999999999999844
42
0.99999999999999989
10
720.69999999999993
20
54.949747468305603
10
720.69999999999993
20
67.999999999999829
10
769.70000000000005
20
67.999999999999829
0
LWPOLYLINE
5
113
100
AcDbEntity
8
0
100
AcDbPolyline
90
8
70
1
43
0.0
10
740.84974746830562
20
24.999999999999535
42
0.9999999925494194
10
735.90000000000032
20
20.050252531693296
10
735.90000000000009
20
-20.050252531694738
42
0.99999999999999989
10
740.84974746830596
20
-25.000000000000512
10
749.55025253169435
20
-25.000000000000234
42
0.9999999925494194
10
754.5
20
-20.050252531694269
10
754.5
20
20.050252531694031
42
1.0000000074505806
10
749.55025253169413
20
24.999999999999805
0
ENDSEC
0
SECTION
2
OBJECTS
0
DICTIONARY
5
C
100
AcDbDictionary
3
ACAD_GROUP
350
D
3
ACAD_MLINESTYLE
350
17
0
DICTIONARY
5
D
100
AcDbDictionary
0
DICTIONARY
5
1A
330
C
100
AcDbDictionary
0
DICTIONARY
5
17
100
AcDbDictionary
0
ENDSEC
0
EOF
